Guitar Pro 6.0
Guitar Pro 5.1
Guitar Pro 4.0 更多>>
 
最新资讯中心
您的位置:网站首页 > 资讯中心 > 技术文章 > 正文

手指独立性练习

2007-6-7 11:35:44 来源:http://www.gtp.cn2 作者:网络 次数:

1: 
------------14--15----
--12--13--------------
-------------------------
-------------------------
-------------------------
-------------------------

2:
-------13--------15---
---12------14---------
-------------------------
-------------------------
-------------------------
-------------------------

3:
-------13--14---------
---12----------15-----
-------------------------
-------------------------
-------------------------
-------------------------

4:
------------14--15----
--12---13-------------
-------------------------
-------------------------
-------------------------
-------------------------

5:
--12-------------15---
--------13--14--------
-------------------------
-------------------------
-------------------------
-------------------------

6:
--12---------14-------
--------13-------15---
-------------------------
-------------------------
-------------------------
-------------------------

7:
-------13------15-----
--14-------12---------
-------------------------
-------------------------
-------------------------
-------------------------

8:
--12-----------15-----
-------13--14---------
-------------------------
-------------------------
-------------------------
-------------------------

9:
--12--13--------------
-------------14---15--
-------------------------
-------------------------
-------------------------
-------------------------

10:
--------13--14--------
--15-------------12---
-------------------------
-------------------------
-------------------------
-------------------------

11:
--12--------14--------
-------15---------13--
-------------------------
-------------------------
-------------------------
-------------------------

12:
--12---13-------------
-------------14---15--
-------------------------
-------------------------
-------------------------
------------------------- 

读完这篇文章后,您心情如何?
0
0
0
0
0
0
0
0
本文网址:

标签: